ISO-10303-21;
HEADER;
/* Generated by software containing ST-Developer
 * from STEP Tools, Inc. (www.steptools.com) 
 */

FILE_DESCRIPTION(
/* description */ (''),
/* implementation_level */ '2;1');

FILE_NAME(
/* name */ 'SAH_65_R_N.dxf',
/* time_stamp */ '2012-11-23T16:49:46+08:00',
/* author */ (''),
/* organization */ (''),
/* preprocessor_version */ 'ST-DEVELOPER v9',
/* originating_system */ 'UGS - NX 4.0',
/* authorisation */ '');

FILE_SCHEMA (('CONFIG_CONTROL_DESIGN'));
ENDSEC;

DATA;
#10=SHAPE_REPRESENTATION_RELATIONSHIP('None',
'relationship between Admi38D0xn6s-None and Admi38D0xn6s-None',#94,#11);
#11=ADVANCED_BREP_SHAPE_REPRESENTATION('Admi38D0xn6s-None',(#95),#465);
#12=CC_DESIGN_APPROVAL(#24,(#82));
#13=CC_DESIGN_APPROVAL(#25,(#84));
#14=CC_DESIGN_APPROVAL(#26,(#31));
#15=APPROVAL_PERSON_ORGANIZATION(#69,#24,#18);
#16=APPROVAL_PERSON_ORGANIZATION(#70,#25,#19);
#17=APPROVAL_PERSON_ORGANIZATION(#71,#26,#20);
#18=APPROVAL_ROLE('approver');
#19=APPROVAL_ROLE('approver');
#20=APPROVAL_ROLE('approver');
#21=APPROVAL_DATE_TIME(#39,#24);
#22=APPROVAL_DATE_TIME(#40,#25);
#23=APPROVAL_DATE_TIME(#41,#26);
#24=APPROVAL(#27,' ');
#25=APPROVAL(#28,' ');
#26=APPROVAL(#29,' ');
#27=APPROVAL_STATUS('not_yet_approved');
#28=APPROVAL_STATUS('not_yet_approved');
#29=APPROVAL_STATUS('not_yet_approved');
#30=CC_DESIGN_SECURITY_CLASSIFICATION(#31,(#84));
#31=SECURITY_CLASSIFICATION(' ',' ',#32);
#32=SECURITY_CLASSIFICATION_LEVEL('confidential');
#33=CC_DESIGN_DATE_AND_TIME_ASSIGNMENT(#37,#35,(#82));
#34=CC_DESIGN_DATE_AND_TIME_ASSIGNMENT(#38,#36,(#31));
#35=DATE_TIME_ROLE('creation_date');
#36=DATE_TIME_ROLE('classification_date');
#37=DATE_AND_TIME(#52,#42);
#38=DATE_AND_TIME(#53,#43);
#39=DATE_AND_TIME(#54,#44);
#40=DATE_AND_TIME(#55,#45);
#41=DATE_AND_TIME(#56,#46);
#42=LOCAL_TIME(0,0,0.,#47);
#43=LOCAL_TIME(0,0,0.,#48);
#44=LOCAL_TIME(0,0,0.,#49);
#45=LOCAL_TIME(0,0,0.,#50);
#46=LOCAL_TIME(0,0,0.,#51);
#47=COORDINATED_UNIVERSAL_TIME_OFFSET(0,0,.BEHIND.);
#48=COORDINATED_UNIVERSAL_TIME_OFFSET(0,0,.BEHIND.);
#49=COORDINATED_UNIVERSAL_TIME_OFFSET(0,0,.BEHIND.);
#50=COORDINATED_UNIVERSAL_TIME_OFFSET(0,0,.BEHIND.);
#51=COORDINATED_UNIVERSAL_TIME_OFFSET(0,0,.BEHIND.);
#52=CALENDAR_DATE(0,1,1);
#53=CALENDAR_DATE(0,1,1);
#54=CALENDAR_DATE(0,1,1);
#55=CALENDAR_DATE(0,1,1);
#56=CALENDAR_DATE(0,1,1);
#57=CC_DESIGN_PERSON_AND_ORGANIZATION_ASSIGNMENT(#65,#61,(#82,#84));
#58=CC_DESIGN_PERSON_AND_ORGANIZATION_ASSIGNMENT(#66,#62,(#86));
#59=CC_DESIGN_PERSON_AND_ORGANIZATION_ASSIGNMENT(#67,#63,(#84));
#60=CC_DESIGN_PERSON_AND_ORGANIZATION_ASSIGNMENT(#68,#64,(#31));
#61=PERSON_AND_ORGANIZATION_ROLE('creator');
#62=PERSON_AND_ORGANIZATION_ROLE('design_owner');
#63=PERSON_AND_ORGANIZATION_ROLE('design_supplier');
#64=PERSON_AND_ORGANIZATION_ROLE('classification_officer');
#65=PERSON_AND_ORGANIZATION(#79,#72);
#66=PERSON_AND_ORGANIZATION(#79,#73);
#67=PERSON_AND_ORGANIZATION(#79,#74);
#68=PERSON_AND_ORGANIZATION(#79,#75);
#69=PERSON_AND_ORGANIZATION(#79,#76);
#70=PERSON_AND_ORGANIZATION(#79,#77);
#71=PERSON_AND_ORGANIZATION(#79,#78);
#72=ORGANIZATION(' ',' ',' ');
#73=ORGANIZATION(' ',' ',' ');
#74=ORGANIZATION(' ',' ',' ');
#75=ORGANIZATION(' ',' ',' ');
#76=ORGANIZATION(' ',' ',' ');
#77=ORGANIZATION(' ',' ',' ');
#78=ORGANIZATION(' ',' ',' ');
#79=PERSON(' ',' ',' ',(' '),$,$);
#80=SHAPE_DEFINITION_REPRESENTATION(#81,#94);
#81=PRODUCT_DEFINITION_SHAPE('','',#82);
#82=PRODUCT_DEFINITION(' ','',#84,#83);
#83=DESIGN_CONTEXT('',#93,'design');
#84=PRODUCT_DEFINITION_FORMATION_WITH_SPECIFIED_SOURCE(' ',' ',#86,.NOT_KNOWN.);
#85=PRODUCT_RELATED_PRODUCT_CATEGORY('detail','',(#86));
#86=PRODUCT('Admi38D0xn6s','Admi38D0xn6s',' ',(#91));
#87=PRODUCT_CATEGORY_RELATIONSHIP(' ',' ',#89,#90);
#88=PRODUCT_CATEGORY_RELATIONSHIP('','',#90,#85);
#89=PRODUCT_CATEGORY('part',' ');
#90=PRODUCT_CATEGORY(' ','');
#91=MECHANICAL_CONTEXT(' ',#93,'mechanical');
#92=APPLICATION_PROTOCOL_DEFINITION('international standard',
'config_control_design',1994,#93);
#93=APPLICATION_CONTEXT(
'configuration controlled 3D designs of mechanical parts and assemblies
');
#94=SHAPE_REPRESENTATION('Admi38D0xn6s-None',(#298),#465);
#95=MANIFOLD_SOLID_BREP('',#96);
#96=CLOSED_SHELL('',(#112,#113,#114,#115,#116,#117,#118,#119,#120,#121,#122,
#123,#124,#125,#126,#127,#128,#129));
#97=VERTEX_LOOP('',#259);
#98=CONICAL_SURFACE('',#320,6.145548,45.);
#99=CONICAL_SURFACE('',#328,0.145548000000009,65.556045219584);
#100=CONICAL_SURFACE('',#329,0.,65.5560452195757);
#101=CONICAL_SURFACE('',#333,2.,45.);
#102=CONICAL_SURFACE('',#334,2.,45.);
#103=CYLINDRICAL_SURFACE('',#305,13.491437);
#104=CYLINDRICAL_SURFACE('',#314,32.4914372056369);
#105=CYLINDRICAL_SURFACE('',#322,6.145548);
#106=CYLINDRICAL_SURFACE('',#326,5.64554799999999);
#107=CYLINDRICAL_SURFACE('',#332,1.5);
#108=TOROIDAL_SURFACE('',#303,11.491437,2.);
#109=TOROIDAL_SURFACE('',#307,16.491437,3.);
#110=TOROIDAL_SURFACE('',#312,31.500458,0.99101999999999);
#111=TOROIDAL_SURFACE('',#316,31.482499,1.00897800000001);
#112=ADVANCED_FACE('',(#162,#134),#130,.F.);
#113=ADVANCED_FACE('',(#135,#136),#108,.T.);
#114=ADVANCED_FACE('',(#137,#138),#103,.T.);
#115=ADVANCED_FACE('',(#139,#140),#109,.F.);
#116=ADVANCED_FACE('',(#141,#142,#163),#131,.F.);
#117=ADVANCED_FACE('',(#143,#144),#110,.T.);
#118=ADVANCED_FACE('',(#145,#146),#104,.T.);
#119=ADVANCED_FACE('',(#147,#148),#111,.T.);
#120=ADVANCED_FACE('',(#149,#164),#132,.F.);
#121=ADVANCED_FACE('',(#165,#150),#98,.F.);
#122=ADVANCED_FACE('',(#151,#152),#105,.F.);
#123=ADVANCED_FACE('',(#153,#166),#133,.T.);
#124=ADVANCED_FACE('',(#154,#155),#106,.F.);
#125=ADVANCED_FACE('',(#156,#167),#99,.F.);
#126=ADVANCED_FACE('',(#168,#157),#100,.T.);
#127=ADVANCED_FACE('',(#158,#159),#107,.F.);
#128=ADVANCED_FACE('',(#160,#169),#101,.F.);
#129=ADVANCED_FACE('',(#161,#170),#102,.F.);
#130=PLANE('',#301);
#131=PLANE('',#310);
#132=PLANE('',#318);
#133=PLANE('',#324);
#134=FACE_BOUND('',#172,.T.);
#135=FACE_BOUND('',#173,.T.);
#136=FACE_BOUND('',#174,.T.);
#137=FACE_BOUND('',#175,.T.);
#138=FACE_BOUND('',#176,.T.);
#139=FACE_BOUND('',#177,.T.);
#140=FACE_BOUND('',#178,.T.);
#141=FACE_BOUND('',#179,.T.);
#142=FACE_BOUND('',#180,.T.);
#143=FACE_BOUND('',#182,.T.);
#144=FACE_BOUND('',#183,.T.);
#145=FACE_BOUND('',#184,.T.);
#146=FACE_BOUND('',#185,.T.);
#147=FACE_BOUND('',#186,.T.);
#148=FACE_BOUND('',#187,.T.);
#149=FACE_BOUND('',#188,.T.);
#150=FACE_BOUND('',#191,.T.);
#151=FACE_BOUND('',#192,.T.);
#152=FACE_BOUND('',#193,.T.);
#153=FACE_BOUND('',#194,.T.);
#154=FACE_BOUND('',#196,.T.);
#155=FACE_BOUND('',#197,.T.);
#156=FACE_BOUND('',#198,.T.);
#157=FACE_BOUND('',#97,.T.);
#158=FACE_BOUND('',#201,.T.);
#159=FACE_BOUND('',#202,.T.);
#160=FACE_BOUND('',#203,.T.);
#161=FACE_BOUND('',#205,.T.);
#162=FACE_OUTER_BOUND('',#171,.T.);
#163=FACE_OUTER_BOUND('',#181,.T.);
#164=FACE_OUTER_BOUND('',#189,.T.);
#165=FACE_OUTER_BOUND('',#190,.T.);
#166=FACE_OUTER_BOUND('',#195,.T.);
#167=FACE_OUTER_BOUND('',#199,.T.);
#168=FACE_OUTER_BOUND('',#200,.T.);
#169=FACE_OUTER_BOUND('',#204,.T.);
#170=FACE_OUTER_BOUND('',#206,.T.);
#171=EDGE_LOOP('',(#207));
#172=EDGE_LOOP('',(#208));
#173=EDGE_LOOP('',(#209));
#174=EDGE_LOOP('',(#210));
#175=EDGE_LOOP('',(#211));
#176=EDGE_LOOP('',(#212));
#177=EDGE_LOOP('',(#213));
#178=EDGE_LOOP('',(#214));
#179=EDGE_LOOP('',(#215));
#180=EDGE_LOOP('',(#216));
#181=EDGE_LOOP('',(#217));
#182=EDGE_LOOP('',(#218));
#183=EDGE_LOOP('',(#219));
#184=EDGE_LOOP('',(#220));
#185=EDGE_LOOP('',(#221));
#186=EDGE_LOOP('',(#222));
#187=EDGE_LOOP('',(#223));
#188=EDGE_LOOP('',(#224));
#189=EDGE_LOOP('',(#225));
#190=EDGE_LOOP('',(#226));
#191=EDGE_LOOP('',(#227));
#192=EDGE_LOOP('',(#228));
#193=EDGE_LOOP('',(#229));
#194=EDGE_LOOP('',(#230));
#195=EDGE_LOOP('',(#231));
#196=EDGE_LOOP('',(#232));
#197=EDGE_LOOP('',(#233));
#198=EDGE_LOOP('',(#234));
#199=EDGE_LOOP('',(#235));
#200=EDGE_LOOP('',(#236));
#201=EDGE_LOOP('',(#237));
#202=EDGE_LOOP('',(#238));
#203=EDGE_LOOP('',(#239));
#204=EDGE_LOOP('',(#240));
#205=EDGE_LOOP('',(#241));
#206=EDGE_LOOP('',(#242));
#207=ORIENTED_EDGE('',*,*,#262,.T.);
#208=ORIENTED_EDGE('',*,*,#263,.F.);
#209=ORIENTED_EDGE('',*,*,#262,.F.);
#210=ORIENTED_EDGE('',*,*,#264,.T.);
#211=ORIENTED_EDGE('',*,*,#264,.F.);
#212=ORIENTED_EDGE('',*,*,#265,.T.);
#213=ORIENTED_EDGE('',*,*,#265,.F.);
#214=ORIENTED_EDGE('',*,*,#266,.T.);
#215=ORIENTED_EDGE('',*,*,#267,.T.);
#216=ORIENTED_EDGE('',*,*,#266,.F.);
#217=ORIENTED_EDGE('',*,*,#268,.T.);
#218=ORIENTED_EDGE('',*,*,#268,.F.);
#219=ORIENTED_EDGE('',*,*,#269,.T.);
#220=ORIENTED_EDGE('',*,*,#269,.F.);
#221=ORIENTED_EDGE('',*,*,#270,.T.);
#222=ORIENTED_EDGE('',*,*,#270,.F.);
#223=ORIENTED_EDGE('',*,*,#271,.T.);
#224=ORIENTED_EDGE('',*,*,#272,.T.);
#225=ORIENTED_EDGE('',*,*,#271,.F.);
#226=ORIENTED_EDGE('',*,*,#263,.T.);
#227=ORIENTED_EDGE('',*,*,#273,.F.);
#228=ORIENTED_EDGE('',*,*,#274,.F.);
#229=ORIENTED_EDGE('',*,*,#273,.T.);
#230=ORIENTED_EDGE('',*,*,#275,.F.);
#231=ORIENTED_EDGE('',*,*,#274,.T.);
#232=ORIENTED_EDGE('',*,*,#275,.T.);
#233=ORIENTED_EDGE('',*,*,#276,.F.);
#234=ORIENTED_EDGE('',*,*,#277,.F.);
#235=ORIENTED_EDGE('',*,*,#276,.T.);
#236=ORIENTED_EDGE('',*,*,#277,.T.);
#237=ORIENTED_EDGE('',*,*,#278,.T.);
#238=ORIENTED_EDGE('',*,*,#279,.T.);
#239=ORIENTED_EDGE('',*,*,#279,.F.);
#240=ORIENTED_EDGE('',*,*,#267,.F.);
#241=ORIENTED_EDGE('',*,*,#278,.F.);
#242=ORIENTED_EDGE('',*,*,#272,.F.);
#243=VERTEX_POINT('',#411);
#244=VERTEX_POINT('',#413);
#245=VERTEX_POINT('',#416);
#246=VERTEX_POINT('',#419);
#247=VERTEX_POINT('',#422);
#248=VERTEX_POINT('',#425);
#249=VERTEX_POINT('',#427);
#250=VERTEX_POINT('',#430);
#251=VERTEX_POINT('',#433);
#252=VERTEX_POINT('',#436);
#253=VERTEX_POINT('',#439);
#254=VERTEX_POINT('',#442);
#255=VERTEX_POINT('',#445);
#256=VERTEX_POINT('',#448);
#257=VERTEX_POINT('',#451);
#258=VERTEX_POINT('',#454);
#259=VERTEX_POINT('',#456);
#260=VERTEX_POINT('',#459);
#261=VERTEX_POINT('',#461);
#262=EDGE_CURVE('',#243,#243,#280,.T.);
#263=EDGE_CURVE('',#244,#244,#281,.T.);
#264=EDGE_CURVE('',#245,#245,#282,.T.);
#265=EDGE_CURVE('',#246,#246,#283,.T.);
#266=EDGE_CURVE('',#247,#247,#284,.T.);
#267=EDGE_CURVE('',#248,#248,#285,.T.);
#268=EDGE_CURVE('',#249,#249,#286,.T.);
#269=EDGE_CURVE('',#250,#250,#287,.T.);
#270=EDGE_CURVE('',#251,#251,#288,.T.);
#271=EDGE_CURVE('',#252,#252,#289,.T.);
#272=EDGE_CURVE('',#253,#253,#290,.T.);
#273=EDGE_CURVE('',#254,#254,#291,.T.);
#274=EDGE_CURVE('',#255,#255,#292,.T.);
#275=EDGE_CURVE('',#256,#256,#293,.T.);
#276=EDGE_CURVE('',#257,#257,#294,.T.);
#277=EDGE_CURVE('',#258,#258,#295,.T.);
#278=EDGE_CURVE('',#260,#260,#296,.T.);
#279=EDGE_CURVE('',#261,#261,#297,.T.);
#280=CIRCLE('',#299,11.491437);
#281=CIRCLE('',#300,7.145548);
#282=CIRCLE('',#302,13.491437);
#283=CIRCLE('',#304,13.491437);
#284=CIRCLE('',#306,16.491437);
#285=CIRCLE('',#308,2.);
#286=CIRCLE('',#309,31.491436947031);
#287=CIRCLE('',#311,32.491437);
#288=CIRCLE('',#313,32.4914374112738);
#289=CIRCLE('',#315,31.491437);
#290=CIRCLE('',#317,2.);
#291=CIRCLE('',#319,6.145548);
#292=CIRCLE('',#321,6.145548);
#293=CIRCLE('',#323,5.645548);
#294=CIRCLE('',#325,5.64554799999999);
#295=CIRCLE('',#327,0.145548000000009);
#296=CIRCLE('',#330,1.5);
#297=CIRCLE('',#331,1.5);
#298=AXIS2_PLACEMENT_3D('',#409,#335,#336);
#299=AXIS2_PLACEMENT_3D('',#410,#337,#338);
#300=AXIS2_PLACEMENT_3D('',#412,#339,#340);
#301=AXIS2_PLACEMENT_3D('',#414,#341,#342);
#302=AXIS2_PLACEMENT_3D('',#415,#343,#344);
#303=AXIS2_PLACEMENT_3D('',#417,#345,#346);
#304=AXIS2_PLACEMENT_3D('',#418,#347,#348);
#305=AXIS2_PLACEMENT_3D('',#420,#349,#350);
#306=AXIS2_PLACEMENT_3D('',#421,#351,#352);
#307=AXIS2_PLACEMENT_3D('',#423,#353,#354);
#308=AXIS2_PLACEMENT_3D('',#424,#355,#356);
#309=AXIS2_PLACEMENT_3D('',#426,#357,#358);
#310=AXIS2_PLACEMENT_3D('',#428,#359,#360);
#311=AXIS2_PLACEMENT_3D('',#429,#361,#362);
#312=AXIS2_PLACEMENT_3D('',#431,#363,#364);
#313=AXIS2_PLACEMENT_3D('',#432,#365,#366);
#314=AXIS2_PLACEMENT_3D('',#434,#367,#368);
#315=AXIS2_PLACEMENT_3D('',#435,#369,#370);
#316=AXIS2_PLACEMENT_3D('',#437,#371,#372);
#317=AXIS2_PLACEMENT_3D('',#438,#373,#374);
#318=AXIS2_PLACEMENT_3D('',#440,#375,#376);
#319=AXIS2_PLACEMENT_3D('',#441,#377,#378);
#320=AXIS2_PLACEMENT_3D('',#443,#379,#380);
#321=AXIS2_PLACEMENT_3D('',#444,#381,#382);
#322=AXIS2_PLACEMENT_3D('',#446,#383,#384);
#323=AXIS2_PLACEMENT_3D('',#447,#385,#386);
#324=AXIS2_PLACEMENT_3D('',#449,#387,#388);
#325=AXIS2_PLACEMENT_3D('',#450,#389,#390);
#326=AXIS2_PLACEMENT_3D('',#452,#391,#392);
#327=AXIS2_PLACEMENT_3D('',#453,#393,#394);
#328=AXIS2_PLACEMENT_3D('',#455,#395,#396);
#329=AXIS2_PLACEMENT_3D('',#457,#397,#398);
#330=AXIS2_PLACEMENT_3D('',#458,#399,#400);
#331=AXIS2_PLACEMENT_3D('',#460,#401,#402);
#332=AXIS2_PLACEMENT_3D('',#462,#403,#404);
#333=AXIS2_PLACEMENT_3D('',#463,#405,#406);
#334=AXIS2_PLACEMENT_3D('',#464,#407,#408);
#335=DIRECTION('',(0.,0.,1.));
#336=DIRECTION('',(1.,0.,0.));
#337=DIRECTION('',(1.,0.,0.));
#338=DIRECTION('',(0.,0.,-1.));
#339=DIRECTION('',(1.,0.,0.));
#340=DIRECTION('',(0.,0.,-1.));
#341=DIRECTION('',(-1.,0.,0.));
#342=DIRECTION('',(0.,0.,1.));
#343=DIRECTION('',(1.,0.,0.));
#344=DIRECTION('',(0.,0.,-1.));
#345=DIRECTION('',(1.,0.,0.));
#346=DIRECTION('',(0.,0.,-1.));
#347=DIRECTION('',(1.,0.,0.));
#348=DIRECTION('',(0.,0.,-1.));
#349=DIRECTION('',(1.,0.,0.));
#350=DIRECTION('',(0.,0.,-1.));
#351=DIRECTION('',(1.,0.,0.));
#352=DIRECTION('',(0.,0.,-1.));
#353=DIRECTION('',(1.,0.,0.));
#354=DIRECTION('',(0.,0.,-1.));
#355=DIRECTION('',(-1.,0.,0.));
#356=DIRECTION('',(0.,0.,1.));
#357=DIRECTION('',(1.,0.,0.));
#358=DIRECTION('',(0.,0.,-1.));
#359=DIRECTION('',(-1.,0.,0.));
#360=DIRECTION('',(0.,0.,1.));
#361=DIRECTION('',(1.,0.,0.));
#362=DIRECTION('',(0.,0.,-1.));
#363=DIRECTION('',(1.,0.,0.));
#364=DIRECTION('',(0.,0.,-1.));
#365=DIRECTION('',(1.,0.,0.));
#366=DIRECTION('',(0.,0.,-1.));
#367=DIRECTION('',(1.,0.,0.));
#368=DIRECTION('',(0.,0.,-1.));
#369=DIRECTION('',(1.,0.,0.));
#370=DIRECTION('',(0.,0.,-1.));
#371=DIRECTION('',(1.,0.,0.));
#372=DIRECTION('',(0.,0.,-1.));
#373=DIRECTION('',(1.,0.,0.));
#374=DIRECTION('',(0.,0.,-1.));
#375=DIRECTION('',(1.,0.,0.));
#376=DIRECTION('',(0.,0.,-1.));
#377=DIRECTION('',(1.,0.,0.));
#378=DIRECTION('',(0.,0.,-1.));
#379=DIRECTION('',(1.,0.,0.));
#380=DIRECTION('',(5.51720885130407E-017,0.,-1.));
#381=DIRECTION('',(1.,0.,0.));
#382=DIRECTION('',(0.,0.,-1.));
#383=DIRECTION('',(1.,0.,0.));
#384=DIRECTION('',(0.,0.,-1.));
#385=DIRECTION('',(1.,0.,0.));
#386=DIRECTION('',(0.,0.,-1.));
#387=DIRECTION('',(1.,0.,0.));
#388=DIRECTION('',(0.,0.,-1.));
#389=DIRECTION('',(1.,0.,0.));
#390=DIRECTION('',(0.,0.,-1.));
#391=DIRECTION('',(1.,0.,0.));
#392=DIRECTION('',(0.,0.,-1.));
#393=DIRECTION('',(1.,0.,0.));
#394=DIRECTION('',(0.,0.,-1.));
#395=DIRECTION('',(1.,0.,0.));
#396=DIRECTION('',(3.78460083800258E-017,0.,-1.));
#397=DIRECTION('',(-1.,0.,0.));
#398=DIRECTION('',(-1.26161707343813E-017,0.,1.));
#399=DIRECTION('',(-1.,0.,0.));
#400=DIRECTION('',(0.,0.,-1.));
#401=DIRECTION('',(1.,0.,0.));
#402=DIRECTION('',(0.,0.,1.));
#403=DIRECTION('',(-1.,0.,0.));
#404=DIRECTION('',(0.,0.,1.));
#405=DIRECTION('',(1.,0.,0.));
#406=DIRECTION('',(8.31005257952962E-017,0.,-1.));
#407=DIRECTION('',(-1.,0.,0.));
#408=DIRECTION('',(2.77001752650987E-017,0.,1.));
#409=CARTESIAN_POINT('',(0.,0.,0.));
#410=CARTESIAN_POINT('',(180.,69.854452,0.));
#411=CARTESIAN_POINT('',(180.,69.854452,-11.491437));
#412=CARTESIAN_POINT('',(180.,69.854452,0.));
#413=CARTESIAN_POINT('',(180.,69.854452,-7.145548));
#414=CARTESIAN_POINT('',(180.,77.,0.));
#415=CARTESIAN_POINT('',(178.,69.854452,0.));
#416=CARTESIAN_POINT('',(178.,69.854452,-13.491437));
#417=CARTESIAN_POINT('',(178.,69.854452,0.));
#418=CARTESIAN_POINT('',(165.,69.854452,0.));
#419=CARTESIAN_POINT('',(165.,69.854452,-13.491437));
#420=CARTESIAN_POINT('',(184.604891,69.854452,0.));
#421=CARTESIAN_POINT('',(162.,69.854452,0.));
#422=CARTESIAN_POINT('',(162.,69.854452,-16.491437));
#423=CARTESIAN_POINT('',(165.,69.854452,0.));
#424=CARTESIAN_POINT('',(161.999999970373,47.,0.));
#425=CARTESIAN_POINT('',(161.999999970373,47.,2.));
#426=CARTESIAN_POINT('',(161.999999940747,69.854452,0.));
#427=CARTESIAN_POINT('',(161.999999940747,69.854452,-31.491436947031));
#428=CARTESIAN_POINT('',(161.999999970373,101.345889,0.));
#429=CARTESIAN_POINT('',(161.,69.854452,0.));
#430=CARTESIAN_POINT('',(161.,69.854452,-32.491437));
#431=CARTESIAN_POINT('',(161.009021,69.854452,0.));
#432=CARTESIAN_POINT('',(149.000000061739,69.854452,0.));
#433=CARTESIAN_POINT('',(149.000000061739,69.854452,-32.4914374112738));
#434=CARTESIAN_POINT('',(184.604891,69.854452,0.));
#435=CARTESIAN_POINT('',(148.,69.854452,0.));
#436=CARTESIAN_POINT('',(148.,69.854452,-31.491437));
#437=CARTESIAN_POINT('',(149.008938,69.854452,0.));
#438=CARTESIAN_POINT('',(148.,47.,0.));
#439=CARTESIAN_POINT('',(148.,47.,-2.));
#440=CARTESIAN_POINT('',(148.,69.854452,0.));
#441=CARTESIAN_POINT('',(179.,69.854452,0.));
#442=CARTESIAN_POINT('',(179.,69.854452,-6.145548));
#443=CARTESIAN_POINT('',(179.,69.854452,0.));
#444=CARTESIAN_POINT('',(158.,69.854452,0.));
#445=CARTESIAN_POINT('',(158.,69.854452,-6.145548));
#446=CARTESIAN_POINT('',(184.604891,69.854452,0.));
#447=CARTESIAN_POINT('',(158.,69.854452,0.));
#448=CARTESIAN_POINT('',(158.,69.854452,-5.645548));
#449=CARTESIAN_POINT('',(158.,75.5,0.));
#450=CARTESIAN_POINT('',(155.,69.854452,0.));
#451=CARTESIAN_POINT('',(155.,69.854452,-5.64554799999999));
#452=CARTESIAN_POINT('',(184.604891,69.854452,0.));
#453=CARTESIAN_POINT('',(152.5,69.854452,0.));
#454=CARTESIAN_POINT('',(152.5,69.854452,-0.145548000000009));
#455=CARTESIAN_POINT('',(152.5,69.854452,0.));
#456=CARTESIAN_POINT('',(152.566158181818,69.854452,0.));
#457=CARTESIAN_POINT('',(152.566158181818,69.854452,0.));
#458=CARTESIAN_POINT('',(148.5,47.,0.));
#459=CARTESIAN_POINT('',(148.5,47.,-1.5));
#460=CARTESIAN_POINT('',(161.499999970373,47.,0.));
#461=CARTESIAN_POINT('',(161.499999970373,47.,1.5));
#462=CARTESIAN_POINT('',(334.999999970373,47.,0.));
#463=CARTESIAN_POINT('',(161.999999970373,47.,0.));
#464=CARTESIAN_POINT('',(148.,47.,0.));
#465=(
GEOMETRIC_REPRESENTATION_CONTEXT(3)
GLOBAL_UNCERTAINTY_ASSIGNED_CONTEXT((#466))
GLOBAL_UNIT_ASSIGNED_CONTEXT((#472,#468,#467))
REPRESENTATION_CONTEXT('SAH_65_R_N','TOP_LEVEL_ASSEMBLY_PART')
);
#466=UNCERTAINTY_MEASURE_WITH_UNIT(LENGTH_MEASURE(2.E-005),#472,
'DISTANCE_ACCURACY_VALUE','Maximum Tolerance applied to model');
#467=(
NAMED_UNIT(*)
SI_UNIT($,.STERADIAN.)
SOLID_ANGLE_UNIT()
);
#468=(
CONVERSION_BASED_UNIT('DEGREE',#470)
NAMED_UNIT(#469)
PLANE_ANGLE_UNIT()
);
#469=DIMENSIONAL_EXPONENTS(0.,0.,0.,0.,0.,0.,0.);
#470=PLANE_ANGLE_MEASURE_WITH_UNIT(PLANE_ANGLE_MEASURE(0.0174532925),#471);
#471=(
NAMED_UNIT(*)
PLANE_ANGLE_UNIT()
SI_UNIT($,.RADIAN.)
);
#472=(
LENGTH_UNIT()
NAMED_UNIT(*)
SI_UNIT(.MILLI.,.METRE.)
);
ENDSEC;
END-ISO-10303-21;
